ISO-10303-21;
HEADER;
FILE_DESCRIPTION (( 'STEP AP203' ),
    '1' );
FILE_NAME ('Q-QZWP-R4-25.4-532-M.STEP',
    '2020-12-23T01:27:55',
    ( '' ),
    ( '' ),
    'SwSTEP 2.0',
    'SolidWorks 2020',
    '' );
FILE_SCHEMA (( 'CONFIG_CONTROL_DESIGN' ));
ENDSEC;

DATA;
#1 = COORDINATED_UNIVERSAL_TIME_OFFSET ( 8, 0, .AHEAD. ) ;
#2 = CALENDAR_DATE ( 2020, 23, 12 ) ;
#3 = CC_DESIGN_DATE_AND_TIME_ASSIGNMENT ( #96, #114, ( #89 ) ) ;
#4 = PERSON_AND_ORGANIZATION_ROLE ( 'design_supplier' ) ;
#5 = DATE_AND_TIME ( #50, #74 ) ;
#6 = LOCAL_TIME ( 9, 27, 55.00000000000000000, #99 ) ;
#7 = ORIENTED_EDGE ( 'NONE', *, *, #19, .T. ) ;
#8 = AXIS2_PLACEMENT_3D ( 'NONE', #25, #65, #134 ) ;
#9 = MECHANICAL_CONTEXT ( 'NONE', #139, 'mechanical' ) ;
#10 = DIRECTION ( 'NONE',  ( 0.000000000000000000, 0.000000000000000000, 1.000000000000000000 ) ) ;
#11 = DIRECTION ( 'NONE',  ( -1.000000000000000000, -0.000000000000000000, -0.000000000000000000 ) ) ;
#12 = AXIS2_PLACEMENT_3D ( 'NONE', #69, #175, #42 ) ;
#13 =( NAMED_UNIT ( * ) SI_UNIT ( $, .STERADIAN. ) SOLID_ANGLE_UNIT ( ) );
#14 = ADVANCED_FACE ( 'NONE', ( #113 ), #153, .F. ) ;
#15 = SECURITY_CLASSIFICATION_LEVEL ( 'unclassified' ) ;
#16 = ORIENTED_EDGE ( 'NONE', *, *, #76, .T. ) ;
#17 = PERSON_AND_ORGANIZATION ( #155, #41 ) ;
#18 = AXIS2_PLACEMENT_3D ( 'NONE', #132, #11, #107 ) ;
#19 = EDGE_CURVE ( 'NONE', #36, #23, #39, .T. ) ;
#20 = VECTOR ( 'NONE', #38, 1000.000000000000000 ) ;
#21 = PRODUCT_DEFINITION_SHAPE ( 'NONE', 'NONE',  #40 ) ;
#22 = CIRCLE ( 'NONE', #170, 15.00000000000000000 ) ;
#23 = VERTEX_POINT ( 'NONE', #81 ) ;
#24 = CARTESIAN_POINT ( 'NONE',  ( -1.614212418857619014, 1.836970198721029589E-15, -15.00000000000000000 ) ) ;
#25 = CARTESIAN_POINT ( 'NONE',  ( 0.000000000000000000, 0.000000000000000000, 0.000000000000000000 ) ) ;
#26 = CARTESIAN_POINT ( 'NONE',  ( -1.614212418857619014, 0.000000000000000000, 15.00000000000000000 ) ) ;
#27 = FACE_OUTER_BOUND ( 'NONE', #28, .T. ) ;
#28 = EDGE_LOOP ( 'NONE', ( #163, #64, #7, #131 ) ) ;
#29 =( NAMED_UNIT ( * ) PLANE_ANGLE_UNIT ( ) SI_UNIT ( $, .RADIAN. ) );
#30 = APPROVAL_DATE_TIME ( #32, #56 ) ;
#31 = CC_DESIGN_SECURITY_CLASSIFICATION ( #89, ( #62 ) ) ;
#32 = DATE_AND_TIME ( #97, #112 ) ;
#33 = PERSON_AND_ORGANIZATION ( #155, #41 ) ;
#34 = VECTOR ( 'NONE', #171, 1000.000000000000000 ) ;
#35 = ADVANCED_FACE ( 'NONE', ( #27 ), #135, .T. ) ;
#36 = VERTEX_POINT ( 'NONE', #136 ) ;
#37 = ORIENTED_EDGE ( 'NONE', *, *, #118, .T. ) ;
#38 = DIRECTION ( 'NONE',  ( -1.000000000000000000, -0.000000000000000000, -0.000000000000000000 ) ) ;
#39 = LINE ( 'NONE', #26, #20 ) ;
#40 = PRODUCT_DEFINITION ( 'UNKNOWN', '', #62, #82 ) ;
#41 = ORGANIZATION ( 'UNSPECIFIED', 'UNSPECIFIED', '' ) ;
#42 = DIRECTION ( 'NONE',  ( -0.000000000000000000, 0.000000000000000000, 1.000000000000000000 ) ) ;
#43 =( LENGTH_UNIT ( ) NAMED_UNIT ( * ) SI_UNIT ( .MILLI., .METRE. ) );
#44 = DATE_AND_TIME ( #2, #108 ) ;
#45 = ORIENTED_EDGE ( 'NONE', *, *, #66, .T. ) ;
#46 = CC_DESIGN_PERSON_AND_ORGANIZATION_ASSIGNMENT ( #115, #4, ( #62 ) ) ;
#47 = APPROVAL_ROLE ( '' ) ;
#48 = DIRECTION ( 'NONE',  ( 0.000000000000000000, 0.000000000000000000, -1.000000000000000000 ) ) ;
#49 = APPROVAL_DATE_TIME ( #5, #159 ) ;
#50 = CALENDAR_DATE ( 2020, 23, 12 ) ;
#51 = AXIS2_PLACEMENT_3D ( 'NONE', #149, #123, #10 ) ;
#52 = DIRECTION ( 'NONE',  ( 0.000000000000000000, 0.000000000000000000, 1.000000000000000000 ) ) ;
#53 = DIRECTION ( 'NONE',  ( 0.000000000000000000, 0.000000000000000000, 1.000000000000000000 ) ) ;
#54 = SHAPE_DEFINITION_REPRESENTATION ( #21, #70 ) ;
#55 = VERTEX_POINT ( 'NONE', #79 ) ;
#56 = APPROVAL ( #59, 'UNSPECIFIED' ) ;
#57 = CARTESIAN_POINT ( 'NONE',  ( -3.000000000000000888, 12.69999999999999929, 0.000000000000000000 ) ) ;
#58 = APPROVAL_ROLE ( '' ) ;
#59 = APPROVAL_STATUS ( 'not_yet_approved' ) ;
#60 = CC_DESIGN_APPROVAL ( #61, ( #89 ) ) ;
#61 = APPROVAL ( #125, 'UNSPECIFIED' ) ;
#62 = PRODUCT_DEFINITION_FORMATION_WITH_SPECIFIED_SOURCE ( 'ANY', '', #126, .NOT_KNOWN. ) ;
#63 = CC_DESIGN_DATE_AND_TIME_ASSIGNMENT ( #145, #75, ( #40 ) ) ;
#64 = ORIENTED_EDGE ( 'NONE', *, *, #142, .T. ) ;
#65 = DIRECTION ( 'NONE',  ( 0.000000000000000000, 0.000000000000000000, 1.000000000000000000 ) ) ;
#66 = EDGE_CURVE ( 'NONE', #103, #55, #67, .T. ) ;
#67 = LINE ( 'NONE', #24, #34 ) ;
#68 = PLANE ( 'NONE',  #12 ) ;
#69 = CARTESIAN_POINT ( 'NONE',  ( 3.000000000000000888, 12.69999999999999929, 0.000000000000000000 ) ) ;
#70 = ADVANCED_BREP_SHAPE_REPRESENTATION ( 'Q-QZWP-R4-25.4-532-M', ( #152, #8 ), #141 ) ;
#71 = DIRECTION ( 'NONE',  ( -1.000000000000000000, -0.000000000000000000, -0.000000000000000000 ) ) ;
#72 = ORIENTED_EDGE ( 'NONE', *, *, #142, .F. ) ;
#73 = CIRCLE ( 'NONE', #18, 15.00000000000000000 ) ;
#74 = LOCAL_TIME ( 9, 27, 55.00000000000000000, #77 ) ;
#75 = DATE_TIME_ROLE ( 'creation_date' ) ;
#76 = EDGE_CURVE ( 'NONE', #55, #23, #22, .T. ) ;
#77 = COORDINATED_UNIVERSAL_TIME_OFFSET ( 8, 0, .AHEAD. ) ;
#78 = CC_DESIGN_PERSON_AND_ORGANIZATION_ASSIGNMENT ( #91, #127, ( #62 ) ) ;
#79 = CARTESIAN_POINT ( 'NONE',  ( -3.000000000000000000, 1.836970198721029589E-15, -15.00000000000000000 ) ) ;
#80 = CC_DESIGN_PERSON_AND_ORGANIZATION_ASSIGNMENT ( #17, #140, ( #89 ) ) ;
#81 = CARTESIAN_POINT ( 'NONE',  ( -3.000000000000000000, 0.000000000000000000, 15.00000000000000000 ) ) ;
#82 = DESIGN_CONTEXT ( 'detailed design', #147, 'design' ) ;
#83 = FACE_OUTER_BOUND ( 'NONE', #160, .T. ) ;
#84 = ADVANCED_FACE ( 'NONE', ( #83 ), #68, .F. ) ;
#85 = AXIS2_PLACEMENT_3D ( 'NONE', #94, #105, #121 ) ;
#86 = ORIENTED_EDGE ( 'NONE', *, *, #87, .T. ) ;
#87 = EDGE_CURVE ( 'NONE', #36, #103, #116, .T. ) ;
#88 = CALENDAR_DATE ( 2020, 23, 12 ) ;
#89 = SECURITY_CLASSIFICATION ( '', '', #15 ) ;
#90 = PERSON_AND_ORGANIZATION ( #155, #41 ) ;
#91 = PERSON_AND_ORGANIZATION ( #155, #41 ) ;
#92 = PERSON_AND_ORGANIZATION ( #155, #41 ) ;
#93 = CYLINDRICAL_SURFACE ( 'NONE', #133, 15.00000000000000000 ) ;
#94 = CARTESIAN_POINT ( 'NONE',  ( 3.000000000000000000, 0.000000000000000000, 0.000000000000000000 ) ) ;
#95 = AXIS2_PLACEMENT_3D ( 'NONE', #57, #168, #48 ) ;
#96 = DATE_AND_TIME ( #117, #6 ) ;
#97 = CALENDAR_DATE ( 2020, 23, 12 ) ;
#98 = ORIENTED_EDGE ( 'NONE', *, *, #19, .F. ) ;
#99 = COORDINATED_UNIVERSAL_TIME_OFFSET ( 8, 0, .AHEAD. ) ;
#100 = APPLICATION_PROTOCOL_DEFINITION ( 'international standard', 'config_control_design', 1994, #147 ) ;
#101 = ADVANCED_FACE ( 'NONE', ( #172 ), #93, .T. ) ;
#102 = CC_DESIGN_PERSON_AND_ORGANIZATION_ASSIGNMENT ( #92, #110, ( #126 ) ) ;
#103 = VERTEX_POINT ( 'NONE', #173 ) ;
#104 = APPROVAL_PERSON_ORGANIZATION ( #167, #159, #58 ) ;
#105 = DIRECTION ( 'NONE',  ( -1.000000000000000000, -0.000000000000000000, -0.000000000000000000 ) ) ;
#106 = DIRECTION ( 'NONE',  ( -1.000000000000000000, -0.000000000000000000, -0.000000000000000000 ) ) ;
#107 = DIRECTION ( 'NONE',  ( 0.000000000000000000, 0.000000000000000000, 1.000000000000000000 ) ) ;
#108 = LOCAL_TIME ( 9, 27, 55.00000000000000000, #1 ) ;
#109 = CARTESIAN_POINT ( 'NONE',  ( -1.614212418857619014, 0.000000000000000000, 0.000000000000000000 ) ) ;
#110 = PERSON_AND_ORGANIZATION_ROLE ( 'design_owner' ) ;
#111 = ORIENTED_EDGE ( 'NONE', *, *, #118, .F. ) ;
#112 = LOCAL_TIME ( 9, 27, 55.00000000000000000, #156 ) ;
#113 = FACE_OUTER_BOUND ( 'NONE', #137, .T. ) ;
#114 = DATE_TIME_ROLE ( 'classification_date' ) ;
#115 = PERSON_AND_ORGANIZATION ( #155, #41 ) ;
#116 = CIRCLE ( 'NONE', #85, 15.00000000000000000 ) ;
#117 = CALENDAR_DATE ( 2020, 23, 12 ) ;
#118 = EDGE_CURVE ( 'NONE', #23, #55, #138, .T. ) ;
#119 = EDGE_LOOP ( 'NONE', ( #86, #45, #111, #98 ) ) ;
#120 = DIRECTION ( 'NONE',  ( -1.000000000000000000, -0.000000000000000000, -0.000000000000000000 ) ) ;
#121 = DIRECTION ( 'NONE',  ( 0.000000000000000000, 0.000000000000000000, 1.000000000000000000 ) ) ;
#122 = APPROVAL_PERSON_ORGANIZATION ( #90, #61, #47 ) ;
#123 = DIRECTION ( 'NONE',  ( -1.000000000000000000, -0.000000000000000000, -0.000000000000000000 ) ) ;
#124 = COORDINATED_UNIVERSAL_TIME_OFFSET ( 8, 0, .AHEAD. ) ;
#125 = APPROVAL_STATUS ( 'not_yet_approved' ) ;
#126 = PRODUCT ( 'Q-QZWP-R4-25.4-532-M', 'Q-QZWP-R4-25.4-532-M', '', ( #9 ) ) ;
#127 = PERSON_AND_ORGANIZATION_ROLE ( 'creator' ) ;
#128 = CC_DESIGN_PERSON_AND_ORGANIZATION_ASSIGNMENT ( #33, #129, ( #40 ) ) ;
#129 = PERSON_AND_ORGANIZATION_ROLE ( 'creator' ) ;
#130 = LOCAL_TIME ( 9, 27, 55.00000000000000000, #124 ) ;
#131 = ORIENTED_EDGE ( 'NONE', *, *, #76, .F. ) ;
#132 = CARTESIAN_POINT ( 'NONE',  ( 3.000000000000000000, 0.000000000000000000, 0.000000000000000000 ) ) ;
#133 = AXIS2_PLACEMENT_3D ( 'NONE', #109, #71, #151 ) ;
#134 = DIRECTION ( 'NONE',  ( 1.000000000000000000, 0.000000000000000000, 0.000000000000000000 ) ) ;
#135 = CYLINDRICAL_SURFACE ( 'NONE', #51, 15.00000000000000000 ) ;
#136 = CARTESIAN_POINT ( 'NONE',  ( 3.000000000000000000, 0.000000000000000000, 15.00000000000000000 ) ) ;
#137 = EDGE_LOOP ( 'NONE', ( #37, #16 ) ) ;
#138 = CIRCLE ( 'NONE', #146, 15.00000000000000000 ) ;
#139 = APPLICATION_CONTEXT ( 'configuration controlled 3d designs of mechanical parts and assemblies' ) ;
#140 = PERSON_AND_ORGANIZATION_ROLE ( 'classification_officer' ) ;
#141 =( GEOMETRIC_REPRESENTATION_CONTEXT ( 3 ) GLOBAL_UNCERTAINTY_ASSIGNED_CONTEXT ( ( #143 ) ) GLOBAL_UNIT_ASSIGNED_CONTEXT ( ( #43, #29, #13 ) ) REPRESENTATION_CONTEXT ( 'NONE', 'WORKASPACE' ) );
#142 = EDGE_CURVE ( 'NONE', #103, #36, #73, .T. ) ;
#143 = UNCERTAINTY_MEASURE_WITH_UNIT (LENGTH_MEASURE( 1.000000000000000082E-05 ), #43, 'distance_accuracy_value', 'NONE');
#144 = APPROVAL_DATE_TIME ( #44, #61 ) ;
#145 = DATE_AND_TIME ( #88, #130 ) ;
#146 = AXIS2_PLACEMENT_3D ( 'NONE', #162, #120, #52 ) ;
#147 = APPLICATION_CONTEXT ( 'configuration controlled 3d designs of mechanical parts and assemblies' ) ;
#148 = APPLICATION_PROTOCOL_DEFINITION ( 'international standard', 'config_control_design', 1994, #139 ) ;
#149 = CARTESIAN_POINT ( 'NONE',  ( -1.614212418857619014, 0.000000000000000000, 0.000000000000000000 ) ) ;
#150 = PRODUCT_RELATED_PRODUCT_CATEGORY ( 'detail', '', ( #126 ) ) ;
#151 = DIRECTION ( 'NONE',  ( 0.000000000000000000, 0.000000000000000000, 1.000000000000000000 ) ) ;
#152 = MANIFOLD_SOLID_BREP ( 'Ðý×', #164 ) ;
#153 = PLANE ( 'NONE',  #95 ) ;
#154 = PERSON_AND_ORGANIZATION ( #155, #41 ) ;
#155 = PERSON ( 'UNSPECIFIED', 'UNSPECIFIED', 'UNSPECIFIED', ('UNSPECIFIED'), ('UNSPECIFIED'), ('UNSPECIFIED') ) ;
#156 = COORDINATED_UNIVERSAL_TIME_OFFSET ( 8, 0, .AHEAD. ) ;
#157 = APPROVAL_ROLE ( '' ) ;
#158 = CC_DESIGN_APPROVAL ( #56, ( #62 ) ) ;
#159 = APPROVAL ( #169, 'UNSPECIFIED' ) ;
#160 = EDGE_LOOP ( 'NONE', ( #161, #72 ) ) ;
#161 = ORIENTED_EDGE ( 'NONE', *, *, #87, .F. ) ;
#162 = CARTESIAN_POINT ( 'NONE',  ( -3.000000000000000000, 0.000000000000000000, 0.000000000000000000 ) ) ;
#163 = ORIENTED_EDGE ( 'NONE', *, *, #66, .F. ) ;
#164 = CLOSED_SHELL ( 'NONE', ( #101, #84, #35, #14 ) ) ;
#165 = APPROVAL_PERSON_ORGANIZATION ( #154, #56, #157 ) ;
#166 = CARTESIAN_POINT ( 'NONE',  ( -3.000000000000000000, 0.000000000000000000, 0.000000000000000000 ) ) ;
#167 = PERSON_AND_ORGANIZATION ( #155, #41 ) ;
#168 = DIRECTION ( 'NONE',  ( 1.000000000000000000, 0.000000000000000000, 0.000000000000000000 ) ) ;
#169 = APPROVAL_STATUS ( 'not_yet_approved' ) ;
#170 = AXIS2_PLACEMENT_3D ( 'NONE', #166, #106, #53 ) ;
#171 = DIRECTION ( 'NONE',  ( -1.000000000000000000, -0.000000000000000000, -0.000000000000000000 ) ) ;
#172 = FACE_OUTER_BOUND ( 'NONE', #119, .T. ) ;
#173 = CARTESIAN_POINT ( 'NONE',  ( 3.000000000000000000, 1.836970198721029589E-15, -15.00000000000000000 ) ) ;
#174 = CC_DESIGN_APPROVAL ( #159, ( #40 ) ) ;
#175 = DIRECTION ( 'NONE',  ( -1.000000000000000000, 0.000000000000000000, -0.000000000000000000 ) ) ;
ENDSEC;
END-ISO-10303-21;
